Albi tabs - thanks to goldmonkey2828

Erm, music, lyrics and tabs. Asking about Conchords music, lyrics or tabs please post here.
Sherry
Professional Blonde
Posts: 3961
Joined: Sun Oct 02, 2005 9:57 am

Albi tabs - thanks to goldmonkey2828

Postby Sherry » Sun Oct 16, 2005 7:30 am

goldmonkey2828 emailed in with the tabs to Albi. :prayer: and said

"I Tabbed out Albi (myself)
I plan to tab a couple more songs :) "

So many many thanks goldmonkey2828.

Enjoy people

Albi


Track 1

E||--0--------0---------|--3--------3---------|--3--------3---------|
B||--1--------1---------|--5--------5---------|--3--------3---------|
G||--0--------0----0----|--4--------4----4----|--3--------3----0----|
D||---------------------|---------------------|---------------------|
A||---------------------|---------------------|---------------------|
E||---------------------|---------------------|---------------------|



--1--------1---------|--1--------1--------|--3--------3--------|
--3--------3----0----|--1--------1--------|--3--------3--------|
--2--------2----0----|--1--------1--------|--4--------4--------|
---------------------|--------------------|--------------------|
---------------------|--------------------|--------------------|
---------------------|--------------------|--------------------|



--3--------3---------|--3--------3----3-----|--3--------3---------|
--5--------5---------|--5--------5-------5--|--3--------3---------|
--5--------5----0----|--4--------4----------|--3--------3----3----|
---------------------|----------------------|---------------------|
---------------------|----------------------|---------------------|
---------------------|----------------------|---------------------|



--1--------1--------|--1----------------|--3----------------|
--3--------3--------|--1----------------|--3----------------|
--2--------2--------|--1----------------|--4----------------|
--------------------|-------------------|-------------------|
--------------------|-------------------|-------------------|
--------------------|-------------------|-------------------|



--0--------0--0-------|--3--------3--3-------|--3--------3--3-------|
--1--------1--1-------|--5--------5--5-------|--3--------3--3-------|
--0--------0--0--0----|--4--------4--4--4----|--3--------3--3--0----|
----------------------|----------------------|----------------------|
----------------------|----------------------|----------------------|
----------------------|----------------------|----------------------|



--1--------1--1-------|--1--------1--1------|--3--------3--3------|
--3--------3--3--0----|--1--------1--1------|--3--------3--3------|
--2--------2--2--0----|--1--------1--1------|--4--------4--4------|
----------------------|---------------------|---------------------|
----------------------|---------------------|---------------------|
----------------------|---------------------|---------------------|



--0--------0--0-------|--3--------3--3-------|--3--------3--3-------|
--1--------1--1-------|--5--------5--5-------|--3--------3--3-------|
--0--------0--0--0----|--4--------4--4--4----|--3--------3--3--0----|
----------------------|----------------------|----------------------|
----------------------|----------------------|----------------------|
----------------------|----------------------|----------------------|



--1--------1--1-------|--1--------1--1------|--3--------3--3------|
--3--------3--3--0----|--1--------1--1------|--3--------3--3------|
--2--------2--2--0----|--1--------1--1------|--4--------4--4------|
----------------------|---------------------|---------------------|
----------------------|---------------------|---------------------|
----------------------|---------------------|---------------------|



--0--------0--0-------|--3--------3--3-------|--3--------3--3-------|
--1--------1--1-------|--5--------5--5-------|--3--------3--3-------|
--0--------0--0--0----|--4--------4--4--4----|--3--------3--3--0----|
----------------------|----------------------|----------------------|
----------------------|----------------------|----------------------|
----------------------|----------------------|----------------------|



--1--------1--1-------|--1--------1--1------|--3--------3--3------|
--3--------3--3--0----|--1--------1--1------|--3--------3--3------|
--2--------2--2--0----|--1--------1--1------|--4--------4--4------|
----------------------|---------------------|---------------------|
----------------------|---------------------|---------------------|
----------------------|---------------------|---------------------|



--0--------0--0-------|--3--------3--3-------|--3--------3--3-------|
--1--------1--1-------|--5--------5--5-------|--3--------3--3-------|
--0--------0--0--0----|--4--------4--4--4----|--3--------3--3--0----|
----------------------|----------------------|----------------------|
----------------------|----------------------|----------------------|
----------------------|----------------------|----------------------|



--1--------1--1-------|--1--------1--1------|--3--------3--3------|
--3--------3--3--0----|--1--------1--1------|--3--------3--3------|
--2--------2--2--0----|--1--------1--1------|--4--------4--4------|
----------------------|---------------------|---------------------|
----------------------|---------------------|---------------------|
----------------------|---------------------|---------------------|



--0--------0--0-------|--3--------3--3-------|--3--------3--3-------|
--1--------1--1-------|--5--------5--5-------|--3--------3--3-------|
--0--------0--0--0----|--4--------4--4--4----|--3--------3--3--0----|
----------------------|----------------------|----------------------|
----------------------|----------------------|----------------------|
----------------------|----------------------|----------------------|



--1--------1--1-------|--1--------1--1------|--3--------3--3------|
--3--------3--3--0----|--1--------1--1------|--3--------3--3------|
--2--------2--2--0----|--1--------1--1------|--4--------4--4------|
----------------------|---------------------|---------------------|
----------------------|---------------------|---------------------|
----------------------|---------------------|---------------------|



--0--------0--0-------|--3--------3--3-------|--3--------3--3-------|
--1--------1--1-------|--5--------5--5-------|--3--------3--3-------|
--0--------0--0--0----|--4--------4--4--4----|--3--------3--3--0----|
----------------------|----------------------|----------------------|
----------------------|----------------------|----------------------|
----------------------|----------------------|----------------------|



--1--------1--1-------|--1--------1--1------|--3--------3--3------|
--3--------3--3--0----|--1--------1--1------|--3--------3--3------|
--2--------2--2--0----|--1--------1--1------|--4--------4--4------|
----------------------|---------------------|---------------------|
----------------------|---------------------|---------------------|
----------------------|---------------------|---------------------|



--0--------0--0-------|--3--------3--3-------|--3--------3--3-------|
--1--------1--1-------|--5--------5--5-------|--3--------3--3-------|
--0--------0--0--0----|--4--------4--4--4----|--3--------3--3--0----|
----------------------|----------------------|----------------------|
----------------------|----------------------|----------------------|
----------------------|----------------------|----------------------|



--1--------1--1-------|--1--------1--1------|--3----------------|
--3--------3--3--0----|--1--------1--1------|--3----------------|
--2--------2--2--0----|--1--------1--1------|--4----------------|
----------------------|---------------------|-------------------|
----------------------|---------------------|-------------------|
----------------------|---------------------|-------------------|



------------------|------------------|------------------|------------------|
------------------|------------------|------------------|------------------|
------------------|------------------|------------------|------------------|
------------------|------------------|------------------|------------------|
------------------|------------------|------------------|------------------|
------------------|------------------|------------------|------------------|



------------------|------------------|------------------|------------------|
------------------|------------------|------------------|------------------|
------------------|------------------|------------------|------------------|
------------------|------------------|------------------|------------------|
------------------|------------------|------------------|------------------|
------------------|------------------|------------------|------------------|



------------------|------------------|--0--------0---------|
------------------|------------------|--1--------1---------|
------------------|------------------|--0--------0----0----|
------------------|------------------|---------------------|
------------------|------------------|---------------------|
------------------|------------------|---------------------|



--3--------3---------|--3--------3---------|--1--------1---------|
--5--------5---------|--3--------3---------|--3--------3----0----|
--4--------4----4----|--3--------3----0----|--2--------2----0----|
---------------------|---------------------|---------------------|
---------------------|---------------------|---------------------|
---------------------|---------------------|---------------------|



--1----------------|--3----------------|----------|--8----------------||
--1----------------|--3----------------|----------|--5----------------||
--1----------------|--4----------------|----------|--5----------------||
-------------------|-------------------|----------|-------------------||
-------------------|-------------------|----------|-------------------||
-------------------|-------------------|----------|-------------------||

The Jig
New arrival
Posts: 6
Joined: Sun Oct 02, 2005 9:04 pm

Thank you

Postby The Jig » Fri Oct 21, 2005 1:26 am

Thanks for the tab. I played the first two chords to my wife last night and she knew exactly what it was. She immediately started laughing, and not just at my crappy guitar playing.

I'm not very good at guitar yet, so it's hard for me to find fun stuff to play, but this was perfect.

Thanks again for the tab, I wish I could help come up with some, but I can't learn anything by ear unless it's played on a Kazoo.

User avatar
indigo_jones
That's Mrs. Indigo Jones-McKenzie to you
Posts: 3910
Joined: Sun Oct 02, 2005 3:14 pm

Postby indigo_jones » Fri Oct 21, 2005 4:09 am

I suddenly feel the urge to learn how to play guitar!
"It was a hilarious, hilarious moment in a very bleak, bleak time of my life."

Happiness is Bret-Shaped.

"The forecast for Jemaine today is clean-shaven with a chance of stubble. Scattered stubble throughout the week, resulting in a 60% chance of beard early next week." - mohumbhai mania


Return to “Music, lyrics and tabs”



Who is online

Users browsing this forum: No registered users and 1 guest