Page 1 of 1

Demon WOMAN tabs

Posted: Tue Apr 21, 2009 2:32 am
by lollerskates
I think the goes something like this:

Amin, to Cmaj

E-0-0-0-0-0
B-1-1-1-1-1
G-2-2-2-2-0
D-2-2-2-2-2 through out the song
A-0-0-0-0-3
E-x-x-x-x-x

Then i dont know about the "you cast your spell" bit and the chords for that

and when there is a riff play this
E--------------
B--------------
G-------------- Times 3
D-------5-7-5-7
A----5-7-------
E-5-8----------

And when it descends go down the Amin scale without the G#

E------------------
B------------------
G------------------
D-7-5-3------------
A-------7-5-3------
E-------------8-6-5

I need help for the other bits tho :supz: :rock: