Tabs

Erm, music, lyrics and tabs. Asking about Conchords music, lyrics or tabs please post here.
Sherry
Professional Blonde
Posts: 3961
Joined: Sun Oct 02, 2005 9:57 am

Tabs

Postby Sherry » Sun Oct 02, 2005 4:48 pm

Lots of people emailed wanting tabs to be able to play the music. As yet, no one has sat down and come up with anything. Does anyone have any ideas they want to throw around regarding this? If you do come up with some tabs for songs and maybe want to share, it would be cool. I'd be happy to host them on the site.

I'm getting around to putting lyrics up also. I have a heap typed up and the guys are cool about them going online. Atm, its all the older stuff from Folk The World. Again, if anyone wants to help, and write some up for the site, it would be much appreciatated.

If not, you'll just have to wait till I get around to it.

Dick Grogan
New arrival
Posts: 10
Joined: Sun Oct 02, 2005 8:58 pm

Postby Dick Grogan » Mon Oct 03, 2005 6:23 am

Just a note for anyone posting tabs, the phpbb's [code][/code] tags work really well for keeping things spaced out and regular.

I'd like to try my hand at this sometime (still have that HBO on On Demand) but I better not get anyone's hopes up.

Sherry
Professional Blonde
Posts: 3961
Joined: Sun Oct 02, 2005 9:57 am

Postby Sherry » Tue Oct 04, 2005 7:57 pm

Dick Grogan wrote:Just a note for anyone posting tabs, the phpbb's [code][/code] tags work really well for keeping things spaced out and regular.

I'd like to try my hand at this sometime (still have that HBO on On Demand) but I better not get anyone's hopes up.


Its the sort of thing you just need to sit down with one afternoon and tinker along until you have cracked it. Someone being anyone ;)

I have to say for me Jenny is a great song. Forget the lyrics, I could just listen to the intro and guitars.

I'm hoping either the guys make some tabs available on their site, or that a kind person can sit and thump some out :)

User avatar
FruHead
New arrival
Posts: 1
Joined: Sat Oct 08, 2005 10:11 pm

Jenny Tabs

Postby FruHead » Sun Oct 09, 2005 4:02 pm

Here's some Jenny for you. Feel free to add to it if you like.

Code: Select all

"Jenny"
By The Flight of the Conchords
Partially Transcribed by Tony DeStefano
coolest_ghoul at yahoo dot com

Standard Tuning

h = Hammer
p = Pull
~ = vibrato

CHORDS  Dmaj  C#?  F#min  Gmaj
------  ----  ---  -----  ----
         X     X     X     X
         X     X     10    12
         11    11    11    12
         12    12    11    12
         12    12    9     10
         10    9     X     X
 

E-----------5-3-2-------------------------------------
B-2h3p2-----------5-3-2---------------------2-3-2-5-3-
G-------4-2~------------4-2-2h4p2-2h4p2-2-4-----------
D---------------------------0-----0-------------------
A-----------------------------------------------------
E-----------------------------------------------------

E-5-3-2-------5-3-2-----------------------------...
B-------5-3p2-------5-3-(2)-----2h3p2~2h3p2p0---...
G---------------------------4-2--------------h2-...
D-----------------------------------------------...
A-----------------------------------------------...
E-----------------------------------------------...

I'll try to finish the rest later. If anyone wants to take it from here, feel free :)
Last edited by FruHead on Fri Oct 14, 2005 11:43 pm, edited 1 time in total.

Sherry
Professional Blonde
Posts: 3961
Joined: Sun Oct 02, 2005 9:57 am

Re: Jenny Tabs

Postby Sherry » Sun Oct 09, 2005 4:14 pm

FruHead wrote:Here's some Jenny for you. Feel free to add to it if you like.

I'll try to finish the rest later. If anyone wants to take it from here, feel free :)
[/code]


Mucho kudos and thanks to you. I'm impressed. Awesome. So many people have been asking for the tabs to the guys stuff.

If the whole song gets done, I'd love to post this on the news page and Sound and Vision section of the site, with a big credit and thanks to you of course.

Thanks for taking the time to get this far :)

User avatar
Andria
Bootylicious Flygirl
Posts: 1506
Joined: Sun Oct 02, 2005 11:32 pm

Re: Jenny Tabs

Postby Andria » Sun Oct 09, 2005 7:42 pm

FruHead wrote:Here's some Jenny for you. Feel free to add to it if you like.


Yay, thanks FruHead!
Now I just have to figure out how to read tab... :oops: No, no really this gives me a great reason to brush up on the language.
*brushes dust off guitar* Ah, my poor darling, how you have been neglected.
I'll take your body and cover it with honey, then stick some money to the honey, now you're covered in money, honey. -FotC

LostAtSea
New arrival
Posts: 17
Joined: Tue Oct 11, 2005 2:23 am

Postby LostAtSea » Tue Oct 11, 2005 2:51 am

I had most of "Angels" and part of "Frodo, Don't Wear the Ring" worked out at one point. If I can still remember them, and if I stop being lazy, and if I can figure out how to write tabs on the computer, I'll post them. Okay, that's a lot of ifs. Neat idea, though, to collect these together.

booyaka22
New arrival
Posts: 3
Joined: Mon Oct 03, 2005 11:03 pm

Postby booyaka22 » Sun Nov 13, 2005 10:06 pm

Here's a webisite that has a few of their songs http://www.ultimate-guitar.com/tabs/fli ... s_tabs.htm

gr67
New arrival
Posts: 20
Joined: Mon Apr 09, 2007 5:39 am

Postby gr67 » Sun May 20, 2007 7:38 pm

it would be great if someone could post the tab (or even chords would be great) to

the most beautiful girl in the room
and
Something for the ladies (awesome song)

thanks for any tabs or help on tabbing them :D

folk on

Harker
New arrival
Posts: 1
Joined: Thu May 31, 2007 9:06 pm

Postby Harker » Sun Jun 03, 2007 12:50 pm

yeah if some brilliant person could work out something for the ladies tab that would be fantastic

elbee
New arrival
Posts: 1
Joined: Thu Jun 28, 2007 9:48 am

Postby elbee » Thu Jun 28, 2007 9:53 am

gr67 wrote:it would be great if someone could post the tab (or even chords would be great) to

the most beautiful girl in the room
and
Something for the ladies (awesome song)

thanks for any tabs or help on tabbing them :D

folk on


Something for the ladies//
Try:
Verse - Bbm7, F#m7, B7
Chorus - I'll put this on this afternoon
Ending (redheads not warheads) - Again, I'll post this afternoon

User avatar
The_Elefunk
Giving the paper to the people
Posts: 56
Joined: Fri Jun 29, 2007 1:41 am

Postby The_Elefunk » Fri Jun 29, 2007 6:10 pm

I'm actually trying the learn to play the guitar now. This is so exciting! I really want to know how to play Business Time and Albi.
Shush baby.
Shush.

Count down to my birthday guys: October 13!!

joshdrilling
New arrival
Posts: 3
Joined: Sun Jul 29, 2007 4:42 am

Postby joshdrilling » Sun Jul 29, 2007 5:34 am

Hi friends, I have haphazardly tabbed "If You're Into It" and "Business Time"; although my Business Time is a little shady, it's alright.
If You're Into It!

Code: Select all

 INTRO
E|-----------3------------------|-----------0--------------------
A|--3-----------------3---------|--0-----------------0-----------
D|-----2--2-----2--2-----2--2--2|-----2--2-----2--2-----2--2--2--
G|-----0--0-----0--0-----0--0--0|-----2--2-----2--2-----2--2--2--
B|-----1--1-----1--1-----1--1--1|-----1--1-----1--1-----1--1--1--
e|------------------------------|--------------------------------

E|-----------3--------------------|-----|-----
A|--3-----------------3-----------|--0--|-----
D|-----2--2-----2--2-----2--2--2--|--2--|-----
G|-----0--0-----0--0-----0--0--0--|--2--|-----
B|-----1--1-----1--1-----1--1--1--|--1--|-----
e|--------------------------------|-----|-----


 VERSE "If you want me to..."
E|-----------3------------------|-----------0------------------|--
A|--3-----------------3---------|--0-----------------0---------|--
D|-----2--2-----2--2-----2--2--2|-----2--2-----2--2-----2--2--2|--
G|-----0--0-----0--0-----0--0--0|-----2--2-----2--2-----2--2--2|--
B|-----1--1-----1--1-----1--1--1|-----1--1-----1--1-----1--1--1|--
e|------------------------------|------------------------------|--
               play twice


 CHORUS "You and him, him and you..."
E|--------------|--------------|--------------|--------------|
A|--3--3--3--3--|--0--0--0--0--|--0--0--0--0--|--3--3--3--3--|
D|--2--2--2--2--|--2--2--2--2--|--2--2--2--2--|--2--2--2--2--|
G|--0--0--0--0--|--2--2--2--2--|--2--2--2--2--|--0--0--0--0--|
B|--1--1--1--1--|--1--1--1--1--|--1--1--1--1--|--1--1--1--1--|
e|--------------|--------------|--------------|--------------|
            play twice

Business Time!

Code: Select all

E|--3----------|   
A|--5----3--5--|
D|--3----5--7--|
G|--3----5--7--|
B|--3----4--6--|
e|--3----3--5--|
 Jemaine talking       
      



|-----|      |-----|      |--3--|
|--3--|      |--5--|      |--5--|
|--5--|      |--7--|      |--3--|
|--5--|      |--7--|      |--3--|
|--4--|      |--6--|      |--3--|
|--3--|      |--5--|      |--3--|
It's         It's          Time!
Business!    Business!


That took a long time. If you have any special requests, er, tell me.
joshdrillingjoshdrillingjoshdrillingjoshdrillingjoshdrillingjoshdrillingjoshdrillingjoshdrilling

gr67
New arrival
Posts: 20
Joined: Mon Apr 09, 2007 5:39 am

Postby gr67 » Wed Aug 01, 2007 6:23 pm

these are the chords i use for Bowie song

Code: Select all

|--0---0--0--0
|--8---1--3--1
|--0---0--0--2
|--9---2--4--2
|--10--3--5--0
|--0---0--0--0


Then when he receives a transmission its just playing palm muted 3 on the low E, and then playing the full chord at various parts. Thats all i got so far.

remmy3
New arrival
Posts: 1
Joined: Fri Aug 03, 2007 3:16 am

Postby remmy3 » Fri Aug 03, 2007 3:20 am

booyaka22 wrote:Here's a webisite that has a few of their songs http://www.ultimate-guitar.com/tabs/fli ... s_tabs.htm


The Leggy Blonde tab on that site is terribly inaccurate. The actual chords for the entire song are
D F#min G A

Hope this helps someone! :)


Return to “Music, lyrics and tabs”



Who is online

Users browsing this forum: No registered users and 2 guests

cron