Hiphoppopotamus vs. Rhymenoceros Tabs

Erm, music, lyrics and tabs. Asking about Conchords music, lyrics or tabs please post here.
Invascms
New arrival
Posts: 2
Joined: Wed Apr 25, 2007 3:41 am

Hiphoppopotamus vs. Rhymenoceros Tabs

Postby Invascms » Fri Apr 27, 2007 10:56 pm

Hey guys, I'm new here and I've been tabbing out some conchords songs by ear. I've got two done and I'm half done with three more. I disagreed with the other tabs of H v R so here's my take on it:


Hiphoppopotamus Vs. Rhymenoceros (HBO One Night Stand Version)

Transcribed by Invascms (invasioncms{at}hotmail.com)

Listen to the Song to get the Rhythm! It's fairly easy to pick up.

Key:
(10) - Optional note
\ - Slide Down
h - Hammer on


Beginning:

e|-(10)-(10)--(9)------------------------------------------------|
b|-(10)-(10)--(9)------------------------------------------------|
g|--11---11---10--11-11--10--11-11--10--11-10-11-10---|
d|--10---10---9---10-10---9---10-10--9---10--9--10--9----|xW/e with small rhythm changes
a|--12---12---11--12-12--11--12-12--11--12-11-12-11---|
E|--10---10---9---10-10--9---10--10--9---10--9--10-9----|


Brett Comes in:


e|-------------------|
b|-------------------|
g|-------------------|
d|-------------------| Only when he first comes in then it goes to-->
a|-------------------|
E|-12\5--3--1--0--|

A G F E5
e|---------------------| |-x--|
b|---------------------| |-5--|
g|--6--4--2----------| |-5--|
d|--7--5--3--2-------| |-5--|
a|--7--5--3--2-------| |-3--|
E|--5--3--1--0-------|The G is replaced by a C |-x--| partway through (the R rated Teen Dream Part). Just to let you know.

Brett Starts rapping and Jermaine stops playing the intro and goes to this bassline:


e|----------------------------------------|
b|----------------------------------------|
g|----------------------------------------|
d|----------------------------------------| For however many times you like
a|------------------------------------3----3-----|
E|--5h7p5-5--7h8p7-7--1h3p1-3----5----5---|

The last four notes in Jermaine's bassline change during the song randomly, but they aren't that important so I just got you started. Improvise the last four notes only though.

Right after Jermaine says Steve for the final time Brett hits an E(on the seventh Fret) quickly.

(Steve)
A G F E
e|-------------------------|
b|----------------9-------|
g|--6--4--2------9-------|
d|--7--5--3------9-------|
a|--7--5--3------7-------|
E|--5--3--1------x-------|


Also, after Jermaine says pregnant, Brett hits a harmonic on the high e at the 12th fret.

And that is literally all I could think to tab aside from some variations in Rhythm.


That's all you need to know to play Hiphoppopotamus Vs. Rhymenoceros. Good luck!
Last edited by Invascms on Sun Apr 29, 2007 3:54 pm, edited 2 times in total.

Sherry
Professional Blonde
Posts: 3961
Joined: Sun Oct 02, 2005 9:57 am

Postby Sherry » Sat Apr 28, 2007 6:57 am

Welcome to the forum and thanks for those. Hopefully someone can let us know as to which works better tab wise :) Looking forward to seeing what others you come up with.

Just one thing, any chance you can edit your post and change the font colour? The orange really does not show up well on the white background.

Invascms
New arrival
Posts: 2
Joined: Wed Apr 25, 2007 3:41 am

Postby Invascms » Sat Apr 28, 2007 11:42 pm

Strangely enough, the orange was just the default color for the code text. I tried to edit it but I couldn't change the color. Sorry about that, but I'm not sure why it's not working.

Sherry
Professional Blonde
Posts: 3961
Joined: Sun Oct 02, 2005 9:57 am

Postby Sherry » Sun Apr 29, 2007 9:27 am

Its the code tags for some reason. Without them though the font alters the tab layout.

User avatar
Johnnyp
The One Guy
Posts: 2052
Joined: Sat Oct 29, 2005 2:58 am

Postby Johnnyp » Sun Apr 29, 2007 3:19 pm

Sorry the moderator was slacking. Is that better ? :lol:

Sherry
Professional Blonde
Posts: 3961
Joined: Sun Oct 02, 2005 9:57 am

Postby Sherry » Sun Apr 29, 2007 4:03 pm

Johnnyp wrote:Sorry the moderator was slacking. Is that better ? :lol:


Hehehe :stick:

You have teh power :suckers:

User avatar
Johnnyp
The One Guy
Posts: 2052
Joined: Sat Oct 29, 2005 2:58 am

Postby Johnnyp » Sun Apr 29, 2007 5:08 pm

Thanks for giving me "teh" power :wink:


Return to “Music, lyrics and tabs”



Who is online

Users browsing this forum: Baidu [Spider] and 1 guest

cron